ISO-10303-21;
HEADER;
FILE_DESCRIPTION ((), '1');
FILE_NAME ('C:\\Users\\patri\\OneDrive\\Documents\\Projects\\11281 - Diverter\\11281 - Oring.STP', '2024-04-18T15:13:42', ('Unknown'), ('Global Precision'), 'OneCNC-XR7 Mill 3D Expert', 'OneCNC-XR7 Mill 3D Expert', '');
FILE_SCHEMA (('CONFIG_CONTROL_DESIGN'));
ENDSEC;

DATA;
#1 = CARTESIAN_POINT ('', (6.86, 0., -0.89));
#2 = VERTEX_POINT ('', #1);
#3 = CARTESIAN_POINT ('', (6.86, 0., -0.89));
#4 = CARTESIAN_POINT ('', (5.97, 0., -0.89));
#5 = CARTESIAN_POINT ('', (5.97, 0., -5.44967825620572E-17));
#6 = CARTESIAN_POINT ('', (5.97, 0., 0.89));
#7 = CARTESIAN_POINT ('', (6.86, 0., 0.89));
#8 = CARTESIAN_POINT ('', (7.75, 0., 0.89));
#9 = CARTESIAN_POINT ('', (7.75, 0., 1.63490347686172E-16));
#10 = CARTESIAN_POINT ('', (7.75, 0., -0.89));
#11 = CARTESIAN_POINT ('', (6.86, 0., -0.89));
#12 = (
   BOUNDED_CURVE ()
   B_SPLINE_CURVE (2, (#3, #4, #5, #6, #7, #8, #9, #10, #11), .UNSPECIFIED., .T., .U.)
   B_SPLINE_CURVE_WITH_KNOTS ((3, 2, 2, 2, 3), (0., 0.25, 0.5, 0.75, 1.), .UNSPECIFIED.)
   CURVE ()
   GEOMETRIC_REPRESENTATION_ITEM ()
   RATIONAL_B_SPLINE_CURVE ((1., 0.707106781186548, 1., 0.707106781186548, 1., 0.707106781186548, 1., 0.707106781186548, 1.))
   REPRESENTATION_ITEM ('')
);
#13 = EDGE_CURVE ('', #2, #2, #12, .T.);
#14 = ORIENTED_EDGE ('', *, *, #13, .F.);
#15 = CARTESIAN_POINT ('', (6.86, 0., -0.89));
#16 = CARTESIAN_POINT ('', (6.86, 6.86, -0.89));
#17 = CARTESIAN_POINT ('', (4.20053852107542E-16, 6.86, -0.89));
#18 = CARTESIAN_POINT ('', (-6.86, 6.86, -0.89));
#19 = CARTESIAN_POINT ('', (-6.86, 8.40107704215084E-16, -0.89));
#20 = CARTESIAN_POINT ('', (-6.86, -6.86, -0.89));
#21 = CARTESIAN_POINT ('', (-1.26016155632263E-15, -6.86, -0.89));
#22 = CARTESIAN_POINT ('', (6.86, -6.86, -0.89));
#23 = CARTESIAN_POINT ('', (6.86, 0., -0.89));
#24 = (
   BOUNDED_CURVE ()
   B_SPLINE_CURVE (2, (#15, #16, #17, #18, #19, #20, #21, #22, #23), .UNSPECIFIED., .T., .U.)
   B_SPLINE_CURVE_WITH_KNOTS ((3, 2, 2, 2, 3), (0., 0.25, 0.5, 0.75, 1.), .UNSPECIFIED.)
   CURVE ()
   GEOMETRIC_REPRESENTATION_ITEM ()
   RATIONAL_B_SPLINE_CURVE ((1., 0.707106781186548, 1., 0.707106781186548, 1., 0.707106781186548, 1., 0.707106781186548, 1.))
   REPRESENTATION_ITEM ('')
);
#25 = EDGE_CURVE ('', #2, #2, #24, .T.);
#26 = ORIENTED_EDGE ('', *, *, #25, .T.);
#27 = ORIENTED_EDGE ('', *, *, #13, .T.);
#28 = ORIENTED_EDGE ('', *, *, #25, .F.);
#29 = EDGE_LOOP ('', (#14, #26, #27, #28));
#30 = FACE_OUTER_BOUND ('', #29, .F.);
#31 = CARTESIAN_POINT ('', (6.86, 0., -0.89));
#32 = CARTESIAN_POINT ('', (5.97, 0., -0.89));
#33 = CARTESIAN_POINT ('', (5.97, 0., -5.44967825620572E-17));
#34 = CARTESIAN_POINT ('', (5.97, 0., 0.89));
#35 = CARTESIAN_POINT ('', (6.86, 0., 0.89));
#36 = CARTESIAN_POINT ('', (7.75, 0., 0.89));
#37 = CARTESIAN_POINT ('', (7.75, 0., 1.63490347686172E-16));
#38 = CARTESIAN_POINT ('', (7.75, 0., -0.89));
#39 = CARTESIAN_POINT ('', (6.86, 0., -0.89));
#40 = CARTESIAN_POINT ('', (6.86, 6.86, -0.89));
#41 = CARTESIAN_POINT ('', (5.97, 5.97, -0.89));
#42 = CARTESIAN_POINT ('', (5.97, 5.97, -5.44967825620572E-17));
#43 = CARTESIAN_POINT ('', (5.97, 5.97, 0.89));
#44 = CARTESIAN_POINT ('', (6.86, 6.86, 0.89));
#45 = CARTESIAN_POINT ('', (7.75, 7.75, 0.89));
#46 = CARTESIAN_POINT ('', (7.75, 7.75, 1.63490347686172E-16));
#47 = CARTESIAN_POINT ('', (7.75, 7.75, -0.89));
#48 = CARTESIAN_POINT ('', (6.86, 6.86, -0.89));
#49 = CARTESIAN_POINT ('', (4.20053852107542E-16, 6.86, -0.89));
#50 = CARTESIAN_POINT ('', (3.65557069545485E-16, 5.97, -0.89));
#51 = CARTESIAN_POINT ('', (3.65557069545485E-16, 5.97, -5.44967825620572E-17));
#52 = CARTESIAN_POINT ('', (3.65557069545485E-16, 5.97, 0.89));
#53 = CARTESIAN_POINT ('', (4.20053852107542E-16, 6.86, 0.89));
#54 = CARTESIAN_POINT ('', (4.74550634669599E-16, 7.75, 0.89));
#55 = CARTESIAN_POINT ('', (4.74550634669599E-16, 7.75, 1.63490347686172E-16));
#56 = CARTESIAN_POINT ('', (4.74550634669599E-16, 7.75, -0.89));
#57 = CARTESIAN_POINT ('', (4.20053852107542E-16, 6.86, -0.89));
#58 = CARTESIAN_POINT ('', (-6.86, 6.86, -0.89));
#59 = CARTESIAN_POINT ('', (-5.97, 5.97, -0.89));
#60 = CARTESIAN_POINT ('', (-5.97, 5.97, -5.44967825620572E-17));
#61 = CARTESIAN_POINT ('', (-5.97, 5.97, 0.89));
#62 = CARTESIAN_POINT ('', (-6.86, 6.86, 0.89));
#63 = CARTESIAN_POINT ('', (-7.75, 7.75, 0.89));
#64 = CARTESIAN_POINT ('', (-7.75, 7.75, 1.63490347686172E-16));
#65 = CARTESIAN_POINT ('', (-7.75, 7.75, -0.89));
#66 = CARTESIAN_POINT ('', (-6.86, 6.86, -0.89));
#67 = CARTESIAN_POINT ('', (-6.86, 8.40107704215084E-16, -0.89));
#68 = CARTESIAN_POINT ('', (-5.97, 7.3111413909097E-16, -0.89));
#69 = CARTESIAN_POINT ('', (-5.97, 7.3111413909097E-16, -5.44967825620572E-17));
#70 = CARTESIAN_POINT ('', (-5.97, 7.3111413909097E-16, 0.89));
#71 = CARTESIAN_POINT ('', (-6.86, 8.40107704215084E-16, 0.89));
#72 = CARTESIAN_POINT ('', (-7.75, 9.49101269339199E-16, 0.89));
#73 = CARTESIAN_POINT ('', (-7.75, 9.49101269339199E-16, 1.63490347686172E-16));
#74 = CARTESIAN_POINT ('', (-7.75, 9.49101269339199E-16, -0.89));
#75 = CARTESIAN_POINT ('', (-6.86, 8.40107704215084E-16, -0.89));
#76 = CARTESIAN_POINT ('', (-6.86, -6.86, -0.89));
#77 = CARTESIAN_POINT ('', (-5.97, -5.97, -0.89));
#78 = CARTESIAN_POINT ('', (-5.97, -5.97, -5.44967825620572E-17));
#79 = CARTESIAN_POINT ('', (-5.97, -5.97, 0.89));
#80 = CARTESIAN_POINT ('', (-6.86, -6.86, 0.89));
#81 = CARTESIAN_POINT ('', (-7.75, -7.75, 0.89));
#82 = CARTESIAN_POINT ('', (-7.75, -7.75, 1.63490347686172E-16));
#83 = CARTESIAN_POINT ('', (-7.75, -7.75, -0.89));
#84 = CARTESIAN_POINT ('', (-6.86, -6.86, -0.89));
#85 = CARTESIAN_POINT ('', (-1.26016155632263E-15, -6.86, -0.89));
#86 = CARTESIAN_POINT ('', (-1.09667120863646E-15, -5.97, -0.89));
#87 = CARTESIAN_POINT ('', (-1.09667120863645E-15, -5.97, -5.44967825620572E-17));
#88 = CARTESIAN_POINT ('', (-1.09667120863646E-15, -5.97, 0.89));
#89 = CARTESIAN_POINT ('', (-1.26016155632263E-15, -6.86, 0.89));
#90 = CARTESIAN_POINT ('', (-1.4236519040088E-15, -7.75, 0.89));
#91 = CARTESIAN_POINT ('', (-1.4236519040088E-15, -7.75, 1.63490347686172E-16));
#92 = CARTESIAN_POINT ('', (-1.4236519040088E-15, -7.75, -0.89));
#93 = CARTESIAN_POINT ('', (-1.26016155632263E-15, -6.86, -0.89));
#94 = CARTESIAN_POINT ('', (6.86, -6.86, -0.89));
#95 = CARTESIAN_POINT ('', (5.97, -5.97, -0.89));
#96 = CARTESIAN_POINT ('', (5.97, -5.97, -5.44967825620572E-17));
#97 = CARTESIAN_POINT ('', (5.97, -5.97, 0.89));
#98 = CARTESIAN_POINT ('', (6.86, -6.86, 0.89));
#99 = CARTESIAN_POINT ('', (7.75, -7.75, 0.89));
#100 = CARTESIAN_POINT ('', (7.75, -7.75, 1.63490347686172E-16));
#101 = CARTESIAN_POINT ('', (7.75, -7.75, -0.89));
#102 = CARTESIAN_POINT ('', (6.86, -6.86, -0.89));
#103 = CARTESIAN_POINT ('', (6.86, 0., -0.89));
#104 = CARTESIAN_POINT ('', (5.97, 0., -0.89));
#105 = CARTESIAN_POINT ('', (5.97, 0., -5.44967825620572E-17));
#106 = CARTESIAN_POINT ('', (5.97, 0., 0.89));
#107 = CARTESIAN_POINT ('', (6.86, 0., 0.89));
#108 = CARTESIAN_POINT ('', (7.75, 0., 0.89));
#109 = CARTESIAN_POINT ('', (7.75, 0., 1.63490347686172E-16));
#110 = CARTESIAN_POINT ('', (7.75, 0., -0.89));
#111 = CARTESIAN_POINT ('', (6.86, 0., -0.89));
#112 = (
   BOUNDED_SURFACE ()
   B_SPLINE_SURFACE (2, 2, ((#31, #32, #33, #34, #35, #36, #37, #38, #39), (#40, #41, #42, #43, #44, #45, #46, #47, #48), (#49, #50, #51, #52, #53, #54, #55, #56, #57), (#58, #59, #60, #61, #62, #63, #64, #65, #66), (#67, #68, #69, #70, #71, #72, #73, #74, #75), (#76, #77, #78, #79, #80, #81, #82, #83, #84), (#85, #86, #87, #88, #89, #90, #91, #92, #93), (#94, #95, #96, #97, #98, #99, #100, #101, #102), (#103, #104, #105, #106, #107, #108, #109, #110, #111)), .UNSPECIFIED., .T., .T., .U.)
   B_SPLINE_SURFACE_WITH_KNOTS ((3, 2, 2, 2, 3), (3, 2, 2, 2, 3), (0., 0.25, 0.5, 0.75, 1.), (0., 0.25, 0.5, 0.75, 1.), .UNSPECIFIED.)
   SURFACE ()
   GEOMETRIC_REPRESENTATION_ITEM ()
   RATIONAL_B_SPLINE_SURFACE (((1., 0.707106781186548, 1., 0.707106781186548, 1., 0.707106781186548, 1., 0.707106781186548, 1.), (0.707106781186548, 0.5, 0.707106781186548, 0.5, 0.707106781186548, 0.5, 0.707106781186548, 0.5, 0.707106781186548), (1., 0.707106781186548, 1., 0.707106781186548, 1., 0.707106781186548, 1., 0.707106781186548, 1.), (0.707106781186548, 0.5, 0.707106781186548, 0.5, 0.707106781186548, 0.5, 0.707106781186548, 0.5, 0.707106781186548), (1., 0.707106781186548, 1., 0.707106781186548, 1., 0.707106781186548, 1., 0.707106781186548, 1.), (0.707106781186548, 0.5, 0.707106781186548, 0.5, 0.707106781186548, 0.5, 0.707106781186548, 0.5, 0.707106781186548), (1., 0.707106781186548, 1., 0.707106781186548, 1., 0.707106781186548, 1., 0.707106781186548, 1.), (0.707106781186548, 0.5, 0.707106781186548, 0.5, 0.707106781186548, 0.5, 0.707106781186548, 0.5, 0.707106781186548), (1., 0.707106781186548, 1., 0.707106781186548, 1., 0.707106781186548, 1., 0.707106781186548, 1.)))
   REPRESENTATION_ITEM ('')
);
#113 = ADVANCED_FACE ('', (#30), #112, .F.);
#114 = CLOSED_SHELL ('', (#113));
#115 = MANIFOLD_SOLID_BREP ('', #114);
#116 = (
   LENGTH_UNIT ()
   NAMED_UNIT (*)
   SI_UNIT (.MILLI., .METRE.)
);
#117 = (
   NAMED_UNIT (*)
   SI_UNIT ($, .STERADIAN.)
   SOLID_ANGLE_UNIT ()
);
#118 = (
   NAMED_UNIT (*)
   SI_UNIT ($, .RADIAN.)
   PLANE_ANGLE_UNIT ()
);
#119 = UNCERTAINTY_MEASURE_WITH_UNIT (LENGTH_MEASURE(0.001), #116, 'DISTANCE_ACCURACY_VALUE', '');
#120 = (
   GEOMETRIC_REPRESENTATION_CONTEXT (3)
   GLOBAL_UNCERTAINTY_ASSIGNED_CONTEXT ((#119))
   GLOBAL_UNIT_ASSIGNED_CONTEXT ((#116, #117, #118))
   REPRESENTATION_CONTEXT ('', '3D')
);
#121 = SHAPE_REPRESENTATION ('', (), #120);
#122 = APPLICATION_CONTEXT ('configuration controlled 3D designs of mechanical parts and assemblies');
#123 = APPLICATION_PROTOCOL_DEFINITION ('International Standard', 'config_control_design', 1997, #122);
#124 = MECHANICAL_CONTEXT ('', #122, 'mechanical');
#125 = PRODUCT ('', '', '', (#124));
#126 = PERSON_AND_ORGANIZATION_ROLE ('design_owner');
#127 = PERSON ('', '', $, $, $, $);
#128 = ORGANIZATION ($, '', '');
#129 = PERSON_AND_ORGANIZATION (#127, #128);
#130 = CC_DESIGN_PERSON_AND_ORGANIZATION_ASSIGNMENT (#129, #126, (#125));
#131 = PRODUCT_RELATED_PRODUCT_CATEGORY ('detail', $, (#125));
#132 = PRODUCT_DEFINITION_FORMATION_WITH_SPECIFIED_SOURCE ('', '', #125, .NOT_KNOWN.);
#133 = APPROVAL_STATUS ('approved');
#134 = APPROVAL (#133, '');
#135 = CALENDAR_DATE (2024, 18, 4);
#136 = COORDINATED_UNIVERSAL_TIME_OFFSET (0, $, .AHEAD.);
#137 = LOCAL_TIME (15, 13, 42., #136);
#138 = DATE_AND_TIME (#135, #137);
#139 = APPROVAL_DATE_TIME (#138, #134);
#140 = APPROVAL_ROLE ('');
#141 = PERSON ('', '', $, $, $, $);
#142 = ORGANIZATION ($, '', '');
#143 = PERSON_AND_ORGANIZATION (#141, #142);
#144 = APPROVAL_PERSON_ORGANIZATION (#143, #134, #140);
#145 = CC_DESIGN_APPROVAL (#134, (#132));
#146 = PERSON_AND_ORGANIZATION_ROLE ('creator');
#147 = PERSON ('', '', $, $, $, $);
#148 = ORGANIZATION ($, '', '');
#149 = PERSON_AND_ORGANIZATION (#147, #148);
#150 = CC_DESIGN_PERSON_AND_ORGANIZATION_ASSIGNMENT (#149, #146, (#132));
#151 = PERSON_AND_ORGANIZATION_ROLE ('part_supplier');
#152 = PERSON ('', '', $, $, $, $);
#153 = ORGANIZATION ($, '', '');
#154 = PERSON_AND_ORGANIZATION (#152, #153);
#155 = CC_DESIGN_PERSON_AND_ORGANIZATION_ASSIGNMENT (#154, #151, (#132));
#156 = SECURITY_CLASSIFICATION_LEVEL ('unclassified');
#157 = SECURITY_CLASSIFICATION ('', '', #156);
#158 = APPROVAL_STATUS ('approved');
#159 = APPROVAL (#158, '');
#160 = CALENDAR_DATE (2024, 18, 4);
#161 = COORDINATED_UNIVERSAL_TIME_OFFSET (0, $, .AHEAD.);
#162 = LOCAL_TIME (15, 13, 42., #161);
#163 = DATE_AND_TIME (#160, #162);
#164 = APPROVAL_DATE_TIME (#163, #159);
#165 = APPROVAL_ROLE ('');
#166 = PERSON ('', '', $, $, $, $);
#167 = ORGANIZATION ($, '', '');
#168 = PERSON_AND_ORGANIZATION (#166, #167);
#169 = APPROVAL_PERSON_ORGANIZATION (#168, #159, #165);
#170 = CC_DESIGN_APPROVAL (#159, (#157));
#171 = DATE_TIME_ROLE ('classification_date');
#172 = CALENDAR_DATE (2024, 18, 4);
#173 = COORDINATED_UNIVERSAL_TIME_OFFSET (0, $, .AHEAD.);
#174 = LOCAL_TIME (15, 13, 42., #173);
#175 = DATE_AND_TIME (#172, #174);
#176 = CC_DESIGN_DATE_AND_TIME_ASSIGNMENT (#175, #171, (#157));
#177 = PERSON_AND_ORGANIZATION_ROLE ('classification_officer');
#178 = PERSON ('', '', $, $, $, $);
#179 = ORGANIZATION ($, '', '');
#180 = PERSON_AND_ORGANIZATION (#178, #179);
#181 = CC_DESIGN_PERSON_AND_ORGANIZATION_ASSIGNMENT (#180, #177, (#157));
#182 = CC_DESIGN_SECURITY_CLASSIFICATION (#157, (#132));
#183 = DESIGN_CONTEXT ('', #122, 'design');
#184 = PRODUCT_DEFINITION ('', '', #132, #183);
#185 = APPROVAL_STATUS ('approved');
#186 = APPROVAL (#185, '');
#187 = CALENDAR_DATE (2024, 18, 4);
#188 = COORDINATED_UNIVERSAL_TIME_OFFSET (0, $, .AHEAD.);
#189 = LOCAL_TIME (15, 13, 42., #188);
#190 = DATE_AND_TIME (#187, #189);
#191 = APPROVAL_DATE_TIME (#190, #186);
#192 = APPROVAL_ROLE ('');
#193 = PERSON ('', '', $, $, $, $);
#194 = ORGANIZATION ($, '', '');
#195 = PERSON_AND_ORGANIZATION (#193, #194);
#196 = APPROVAL_PERSON_ORGANIZATION (#195, #186, #192);
#197 = CC_DESIGN_APPROVAL (#186, (#184));
#198 = DATE_TIME_ROLE ('creation_date');
#199 = CALENDAR_DATE (2024, 18, 4);
#200 = COORDINATED_UNIVERSAL_TIME_OFFSET (0, $, .AHEAD.);
#201 = LOCAL_TIME (15, 13, 42., #200);
#202 = DATE_AND_TIME (#199, #201);
#203 = CC_DESIGN_DATE_AND_TIME_ASSIGNMENT (#202, #198, (#184));
#204 = PERSON_AND_ORGANIZATION_ROLE ('creator');
#205 = PERSON ('', '', $, $, $, $);
#206 = ORGANIZATION ($, '', '');
#207 = PERSON_AND_ORGANIZATION (#205, #206);
#208 = CC_DESIGN_PERSON_AND_ORGANIZATION_ASSIGNMENT (#207, #204, (#184));
#209 = PRODUCT_DEFINITION_SHAPE ('', '', #184);
#210 = SHAPE_DEFINITION_REPRESENTATION (#209, #121);
#211 = SHAPE_REPRESENTATION_RELATIONSHIP ('', '', #121, #212);
#212 = ADVANCED_BREP_SHAPE_REPRESENTATION ('', (#115), #120);
ENDSEC;
END-ISO-10303-21;
